ISO-10303-21;
HEADER;
FILE_DESCRIPTION(('STEP AP214'),'1');
FILE_NAME('cctmp_5A6A9ADE-A863-41AA-BE97-FB99069D19C1_2020_6_9_11_18_24_624..stp','2020-06-09T09:18:24',('Georg Fischer Piping Systems Ltd.'),('CADClick - www.CADClick.com'),'Spatial InterOp 3D',' ','unknown authorization');
FILE_SCHEMA(('AUTOMOTIVE_DESIGN'));
ENDSEC;
DATA;
#1=MECHANICAL_DESIGN_GEOMETRIC_PRESENTATION_REPRESENTATION(' ',(#10,#11,#12,#13,#14,#15,#16,#17,#18,#19,#20,#21,#22,#23,#24),#6);
#2=PRODUCT_DEFINITION_CONTEXT('',#25,'design');
#3=APPLICATION_PROTOCOL_DEFINITION('INTERNATIONAL STANDARD','automotive_design',1994,#25);
#4=PRODUCT_CATEGORY_RELATIONSHIP('NONE','NONE',#26,#27);
#5=SHAPE_DEFINITION_REPRESENTATION(#28,#29);
#6= (GEOMETRIC_REPRESENTATION_CONTEXT(3)GLOBAL_UNCERTAINTY_ASSIGNED_CONTEXT((#32))GLOBAL_UNIT_ASSIGNED_CONTEXT((#34,#35,#36))REPRESENTATION_CONTEXT('NONE','WORKSPACE'));
#10=STYLED_ITEM('',(#38),#39);
#11=STYLED_ITEM('',(#40),#41);
#12=STYLED_ITEM('',(#42),#43);
#13=STYLED_ITEM('',(#44),#45);
#14=STYLED_ITEM('',(#46),#47);
#15=STYLED_ITEM('',(#48),#49);
#16=STYLED_ITEM('',(#50),#51);
#17=STYLED_ITEM('',(#52),#53);
#18=STYLED_ITEM('',(#54),#55);
#19=STYLED_ITEM('',(#56),#57);
#20=STYLED_ITEM('',(#58),#59);
#21=STYLED_ITEM('',(#60),#61);
#22=STYLED_ITEM('',(#62),#63);
#23=STYLED_ITEM('',(#64),#65);
#24=STYLED_ITEM('',(#66),#67);
#25=APPLICATION_CONTEXT(' ');
#26=PRODUCT_CATEGORY('part','NONE');
#27=PRODUCT_RELATED_PRODUCT_CATEGORY('detail',' ',(#68));
#28=PRODUCT_DEFINITION_SHAPE('NONE','NONE',#69);
#29=ADVANCED_BREP_SHAPE_REPRESENTATION('753071027',(#67,#70),#6);
#32=UNCERTAINTY_MEASURE_WITH_UNIT(LENGTH_MEASURE(1.0E-006),#34,'','');
#34= (CONVERSION_BASED_UNIT('MILLIMETRE',#73)LENGTH_UNIT()NAMED_UNIT(#76));
#35= (NAMED_UNIT(#78)PLANE_ANGLE_UNIT()SI_UNIT($,.RADIAN.));
#36= (NAMED_UNIT(#78)SOLID_ANGLE_UNIT()SI_UNIT($,.STERADIAN.));
#38=PRESENTATION_STYLE_ASSIGNMENT((#84));
#39=ADVANCED_FACE('',(#85),#86,.F.);
#40=PRESENTATION_STYLE_ASSIGNMENT((#87));
#41=ADVANCED_FACE('',(#88),#89,.T.);
#42=PRESENTATION_STYLE_ASSIGNMENT((#90));
#43=ADVANCED_FACE('',(#91),#92,.T.);
#44=PRESENTATION_STYLE_ASSIGNMENT((#93));
#45=ADVANCED_FACE('',(#94),#95,.T.);
#46=PRESENTATION_STYLE_ASSIGNMENT((#96));
#47=ADVANCED_FACE('',(#97),#98,.F.);
#48=PRESENTATION_STYLE_ASSIGNMENT((#99));
#49=ADVANCED_FACE('',(#100),#101,.F.);
#50=PRESENTATION_STYLE_ASSIGNMENT((#102));
#51=ADVANCED_FACE('',(#103),#104,.F.);
#52=PRESENTATION_STYLE_ASSIGNMENT((#105));
#53=ADVANCED_FACE('',(#106),#107,.F.);
#54=PRESENTATION_STYLE_ASSIGNMENT((#108));
#55=ADVANCED_FACE('',(#109),#110,.T.);
#56=PRESENTATION_STYLE_ASSIGNMENT((#111));
#57=ADVANCED_FACE('',(#112,#113),#114,.T.);
#58=PRESENTATION_STYLE_ASSIGNMENT((#115));
#59=ADVANCED_FACE('',(#116),#117,.T.);
#60=PRESENTATION_STYLE_ASSIGNMENT((#118));
#61=ADVANCED_FACE('',(#119,#120),#121,.T.);
#62=PRESENTATION_STYLE_ASSIGNMENT((#122));
#63=ADVANCED_FACE('',(#123),#124,.T.);
#64=PRESENTATION_STYLE_ASSIGNMENT((#125));
#65=ADVANCED_FACE('',(#126),#127,.F.);
#66=PRESENTATION_STYLE_ASSIGNMENT((#128));
#67=MANIFOLD_SOLID_BREP('753071027',#129);
#68=PRODUCT('753071027','','PART--DESC',(#130));
#69=PRODUCT_DEFINITION('','NONE',#131,#2);
#70=AXIS2_PLACEMENT_3D('',#132,#133,#134);
#73=LENGTH_MEASURE_WITH_UNIT(LENGTH_MEASURE(1.0),#135);
#76=DIMENSIONAL_EXPONENTS(1.0,0.0,0.0,0.0,0.0,0.0,0.0);
#78=DIMENSIONAL_EXPONENTS(0.0,0.0,0.0,0.0,0.0,0.0,0.0);
#84=SURFACE_STYLE_USAGE(.BOTH.,#136);
#85=FACE_OUTER_BOUND('',#137,.T.);
#86=TOROIDAL_SURFACE('',#138,750.0,204.5);
#87=SURFACE_STYLE_USAGE(.BOTH.,#139);
#88=FACE_OUTER_BOUND('',#140,.T.);
#89=TOROIDAL_SURFACE('',#141,750.0,250.0);
#90=SURFACE_STYLE_USAGE(.BOTH.,#142);
#91=FACE_OUTER_BOUND('',#143,.T.);
#92=CYLINDRICAL_SURFACE('',#144,250.0);
#93=SURFACE_STYLE_USAGE(.BOTH.,#145);
#94=FACE_OUTER_BOUND('',#146,.T.);
#95=CYLINDRICAL_SURFACE('',#147,250.0);
#96=SURFACE_STYLE_USAGE(.BOTH.,#148);
#97=FACE_OUTER_BOUND('',#149,.T.);
#98=CYLINDRICAL_SURFACE('',#150,204.5);
#99=SURFACE_STYLE_USAGE(.BOTH.,#151);
#100=FACE_OUTER_BOUND('',#152,.T.);
#101=CYLINDRICAL_SURFACE('',#153,204.5);
#102=SURFACE_STYLE_USAGE(.BOTH.,#154);
#103=FACE_OUTER_BOUND('',#155,.T.);
#104=CYLINDRICAL_SURFACE('',#156,204.5);
#105=SURFACE_STYLE_USAGE(.BOTH.,#157);
#106=FACE_OUTER_BOUND('',#158,.T.);
#107=CYLINDRICAL_SURFACE('',#159,204.5);
#108=SURFACE_STYLE_USAGE(.BOTH.,#160);
#109=FACE_OUTER_BOUND('',#161,.T.);
#110=TOROIDAL_SURFACE('',#162,750.0,250.0);
#111=SURFACE_STYLE_USAGE(.BOTH.,#163);
#112=FACE_BOUND('',#164,.T.);
#113=FACE_OUTER_BOUND('',#165,.T.);
#114=PLANE('',#166);
#115=SURFACE_STYLE_USAGE(.BOTH.,#167);
#116=FACE_OUTER_BOUND('',#168,.T.);
#117=CYLINDRICAL_SURFACE('',#169,250.0);
#118=SURFACE_STYLE_USAGE(.BOTH.,#170);
#119=FACE_BOUND('',#171,.T.);
#120=FACE_OUTER_BOUND('',#172,.T.);
#121=PLANE('',#173);
#122=SURFACE_STYLE_USAGE(.BOTH.,#174);
#123=FACE_OUTER_BOUND('',#175,.T.);
#124=CYLINDRICAL_SURFACE('',#176,250.0);
#125=SURFACE_STYLE_USAGE(.BOTH.,#177);
#126=FACE_OUTER_BOUND('',#178,.T.);
#127=TOROIDAL_SURFACE('',#179,750.0,204.5);
#128=SURFACE_STYLE_USAGE(.BOTH.,#180);
#129=CLOSED_SHELL('',(#39,#41,#43,#45,#47,#49,#51,#53,#55,#57,#59,#61,#63,#65));
#130=PRODUCT_CONTEXT('',#25,'mechanical');
#131=PRODUCT_DEFINITION_FORMATION_WITH_SPECIFIED_SOURCE(' ','NONE',#68,.NOT_KNOWN.);
#132=CARTESIAN_POINT('',(0.0,0.0,0.0));
#133=DIRECTION('',(0.0,0.0,1.0));
#134=DIRECTION('',(1.0,0.0,0.0));
#135= (NAMED_UNIT(#76)LENGTH_UNIT()SI_UNIT(.MILLI.,.METRE.));
#136=SURFACE_SIDE_STYLE('',(#182));
#137=EDGE_LOOP('',(#183,#184,#185,#186,#187,#188));
#138=AXIS2_PLACEMENT_3D('',#189,#190,#191);
#139=SURFACE_SIDE_STYLE('',(#192));
#140=EDGE_LOOP('',(#193,#194,#195,#196));
#141=AXIS2_PLACEMENT_3D('',#197,#198,#199);
#142=SURFACE_SIDE_STYLE('',(#200));
#143=EDGE_LOOP('',(#201,#202,#203,#204));
#144=AXIS2_PLACEMENT_3D('',#205,#206,#207);
#145=SURFACE_SIDE_STYLE('',(#208));
#146=EDGE_LOOP('',(#209,#210,#211,#212));
#147=AXIS2_PLACEMENT_3D('',#213,#214,#215);
#148=SURFACE_SIDE_STYLE('',(#216));
#149=EDGE_LOOP('',(#217,#218,#219,#220));
#150=AXIS2_PLACEMENT_3D('',#221,#222,#223);
#151=SURFACE_SIDE_STYLE('',(#224));
#152=EDGE_LOOP('',(#225,#226,#227,#228));
#153=AXIS2_PLACEMENT_3D('',#229,#230,#231);
#154=SURFACE_SIDE_STYLE('',(#232));
#155=EDGE_LOOP('',(#233,#234,#235,#236,#237));
#156=AXIS2_PLACEMENT_3D('',#238,#239,#240);
#157=SURFACE_SIDE_STYLE('',(#241));
#158=EDGE_LOOP('',(#242,#243,#244,#245,#246));
#159=AXIS2_PLACEMENT_3D('',#247,#248,#249);
#160=SURFACE_SIDE_STYLE('',(#250));
#161=EDGE_LOOP('',(#251,#252,#253,#254));
#162=AXIS2_PLACEMENT_3D('',#255,#256,#257);
#163=SURFACE_SIDE_STYLE('',(#258));
#164=EDGE_LOOP('',(#259,#260));
#165=EDGE_LOOP('',(#261,#262));
#166=AXIS2_PLACEMENT_3D('',#263,#264,#265);
#167=SURFACE_SIDE_STYLE('',(#266));
#168=EDGE_LOOP('',(#267,#268,#269,#270));
#169=AXIS2_PLACEMENT_3D('',#271,#272,#273);
#170=SURFACE_SIDE_STYLE('',(#274));
#171=EDGE_LOOP('',(#275,#276));
#172=EDGE_LOOP('',(#277,#278));
#173=AXIS2_PLACEMENT_3D('',#279,#280,#281);
#174=SURFACE_SIDE_STYLE('',(#282));
#175=EDGE_LOOP('',(#283,#284,#285,#286));
#176=AXIS2_PLACEMENT_3D('',#287,#288,#289);
#177=SURFACE_SIDE_STYLE('',(#290));
#178=EDGE_LOOP('',(#291,#292,#293,#294));
#179=AXIS2_PLACEMENT_3D('',#295,#296,#297);
#180=SURFACE_SIDE_STYLE('',(#298));
#182=SURFACE_STYLE_FILL_AREA(#299);
#183=ORIENTED_EDGE('',*,*,#300,.F.);
#184=ORIENTED_EDGE('',*,*,#301,.F.);
#185=ORIENTED_EDGE('',*,*,#302,.F.);
#186=ORIENTED_EDGE('',*,*,#303,.F.);
#187=ORIENTED_EDGE('',*,*,#304,.F.);
#188=ORIENTED_EDGE('',*,*,#305,.F.);
#189=CARTESIAN_POINT('',(-750.0,9.8663157844602E-014,433.0127018922));
#190=DIRECTION('',(0.0,1.0,0.0));
#191=DIRECTION('',(-1.0,0.0,0.0));
#192=SURFACE_STYLE_FILL_AREA(#306);
#193=ORIENTED_EDGE('',*,*,#307,.F.);
#194=ORIENTED_EDGE('',*,*,#308,.T.);
#195=ORIENTED_EDGE('',*,*,#309,.F.);
#196=ORIENTED_EDGE('',*,*,#310,.T.);
#197=CARTESIAN_POINT('',(-750.0,6.47274487666758E-014,433.0127018922));
#198=DIRECTION('',(0.0,1.0,0.0));
#199=DIRECTION('',(-1.0,0.0,0.0));
#200=SURFACE_STYLE_FILL_AREA(#311);
#201=ORIENTED_EDGE('',*,*,#312,.F.);
#202=ORIENTED_EDGE('',*,*,#313,.F.);
#203=ORIENTED_EDGE('',*,*,#314,.F.);
#204=ORIENTED_EDGE('',*,*,#315,.F.);
#205=CARTESIAN_POINT('',(-460.29800219171,0.0,-265.753175473713));
#206=DIRECTION('',(0.866025403788328,0.0,0.499999999993264));
#207=DIRECTION('',(0.499999999993264,0.0,-0.866025403788328));
#208=SURFACE_STYLE_FILL_AREA(#316);
#209=ORIENTED_EDGE('',*,*,#317,.F.);
#210=ORIENTED_EDGE('',*,*,#318,.F.);
#211=ORIENTED_EDGE('',*,*,#319,.F.);
#212=ORIENTED_EDGE('',*,*,#320,.F.);
#213=CARTESIAN_POINT('',(0.0,0.0,531.5063509461));
#214=DIRECTION('',(0.0,0.0,1.0));
#215=DIRECTION('',(1.0,0.0,0.0));
#216=SURFACE_STYLE_FILL_AREA(#321);
#217=ORIENTED_EDGE('',*,*,#322,.F.);
#218=ORIENTED_EDGE('',*,*,#323,.F.);
#219=ORIENTED_EDGE('',*,*,#324,.F.);
#220=ORIENTED_EDGE('',*,*,#325,.T.);
#221=CARTESIAN_POINT('',(0.0,0.0,531.5063509461));
#222=DIRECTION('',(0.0,0.0,1.0));
#223=DIRECTION('',(1.0,0.0,0.0));
#224=SURFACE_STYLE_FILL_AREA(#326);
#225=ORIENTED_EDGE('',*,*,#327,.F.);
#226=ORIENTED_EDGE('',*,*,#328,.T.);
#227=ORIENTED_EDGE('',*,*,#329,.F.);
#228=ORIENTED_EDGE('',*,*,#330,.F.);
#229=CARTESIAN_POINT('',(-460.29800219171,0.0,-265.753175473713));
#230=DIRECTION('',(0.866025403788328,0.0,0.499999999993264));
#231=DIRECTION('',(0.499999999993264,0.0,-0.866025403788328));
#232=SURFACE_STYLE_FILL_AREA(#331);
#233=ORIENTED_EDGE('',*,*,#327,.T.);
#234=ORIENTED_EDGE('',*,*,#332,.F.);
#235=ORIENTED_EDGE('',*,*,#329,.T.);
#236=ORIENTED_EDGE('',*,*,#302,.T.);
#237=ORIENTED_EDGE('',*,*,#301,.T.);
#238=CARTESIAN_POINT('',(-460.29800219171,0.0,-265.753175473713));
#239=DIRECTION('',(0.866025403788328,0.0,0.499999999993264));
#240=DIRECTION('',(0.499999999993264,0.0,-0.866025403788328));
#241=SURFACE_STYLE_FILL_AREA(#333);
#242=ORIENTED_EDGE('',*,*,#322,.T.);
#243=ORIENTED_EDGE('',*,*,#305,.T.);
#244=ORIENTED_EDGE('',*,*,#304,.T.);
#245=ORIENTED_EDGE('',*,*,#324,.T.);
#246=ORIENTED_EDGE('',*,*,#334,.F.);
#247=CARTESIAN_POINT('',(0.0,0.0,531.5063509461));
#248=DIRECTION('',(0.0,0.0,1.0));
#249=DIRECTION('',(1.0,0.0,0.0));
#250=SURFACE_STYLE_FILL_AREA(#335);
#251=ORIENTED_EDGE('',*,*,#307,.T.);
#252=ORIENTED_EDGE('',*,*,#315,.T.);
#253=ORIENTED_EDGE('',*,*,#309,.T.);
#254=ORIENTED_EDGE('',*,*,#318,.T.);
#255=CARTESIAN_POINT('',(-750.0,6.47274487666758E-014,433.0127018922));
#256=DIRECTION('',(0.0,1.0,0.0));
#257=DIRECTION('',(-1.0,0.0,0.0));
#258=SURFACE_STYLE_FILL_AREA(#336);
#259=ORIENTED_EDGE('',*,*,#334,.T.);
#260=ORIENTED_EDGE('',*,*,#323,.T.);
#261=ORIENTED_EDGE('',*,*,#320,.T.);
#262=ORIENTED_EDGE('',*,*,#337,.T.);
#263=CARTESIAN_POINT('',(0.0,0.0,630.0));
#264=DIRECTION('',(0.0,0.0,1.0));
#265=DIRECTION('',(1.0,0.0,0.0));
#266=SURFACE_STYLE_FILL_AREA(#338);
#267=ORIENTED_EDGE('',*,*,#317,.T.);
#268=ORIENTED_EDGE('',*,*,#337,.F.);
#269=ORIENTED_EDGE('',*,*,#319,.T.);
#270=ORIENTED_EDGE('',*,*,#308,.F.);
#271=CARTESIAN_POINT('',(0.0,0.0,531.5063509461));
#272=DIRECTION('',(0.0,0.0,1.0));
#273=DIRECTION('',(1.0,0.0,0.0));
#274=SURFACE_STYLE_FILL_AREA(#339);
#275=ORIENTED_EDGE('',*,*,#330,.T.);
#276=ORIENTED_EDGE('',*,*,#332,.T.);
#277=ORIENTED_EDGE('',*,*,#340,.T.);
#278=ORIENTED_EDGE('',*,*,#313,.T.);
#279=CARTESIAN_POINT('',(-545.5960043842,0.0,-315.0));
#280=DIRECTION('',(-0.866025403788328,0.0,-0.499999999993264));
#281=DIRECTION('',(-0.499999999993264,0.0,0.866025403788328));
#282=SURFACE_STYLE_FILL_AREA(#341);
#283=ORIENTED_EDGE('',*,*,#312,.T.);
#284=ORIENTED_EDGE('',*,*,#310,.F.);
#285=ORIENTED_EDGE('',*,*,#314,.T.);
#286=ORIENTED_EDGE('',*,*,#340,.F.);
#287=CARTESIAN_POINT('',(-460.29800219171,0.0,-265.753175473713));
#288=DIRECTION('',(0.866025403788328,0.0,0.499999999993264));
#289=DIRECTION('',(0.499999999993264,0.0,-0.866025403788328));
#290=SURFACE_STYLE_FILL_AREA(#342);
#291=ORIENTED_EDGE('',*,*,#300,.T.);
#292=ORIENTED_EDGE('',*,*,#325,.F.);
#293=ORIENTED_EDGE('',*,*,#303,.T.);
#294=ORIENTED_EDGE('',*,*,#328,.F.);
#295=CARTESIAN_POINT('',(-750.0,9.8663157844602E-014,433.0127018922));
#296=DIRECTION('',(0.0,1.0,0.0));
#297=DIRECTION('',(-1.0,0.0,0.0));
#298=SURFACE_STYLE_FILL_AREA(#343);
#299=FILL_AREA_STYLE('',(#344));
#300=EDGE_CURVE('',#345,#346,#347,.T.);
#301=EDGE_CURVE('',#348,#345,#349,.T.);
#302=EDGE_CURVE('',#350,#348,#351,.T.);
#303=EDGE_CURVE('',#352,#350,#353,.T.);
#304=EDGE_CURVE('',#354,#352,#355,.T.);
#305=EDGE_CURVE('',#346,#354,#356,.T.);
#306=FILL_AREA_STYLE('',(#357));
#307=EDGE_CURVE('',#358,#359,#360,.T.);
#308=EDGE_CURVE('',#358,#361,#362,.T.);
#309=EDGE_CURVE('',#363,#361,#364,.T.);
#310=EDGE_CURVE('',#363,#359,#365,.T.);
#311=FILL_AREA_STYLE('',(#366));
#312=EDGE_CURVE('',#367,#359,#368,.T.);
#313=EDGE_CURVE('',#369,#367,#370,.T.);
#314=EDGE_CURVE('',#363,#369,#371,.T.);
#315=EDGE_CURVE('',#359,#363,#372,.T.);
#316=FILL_AREA_STYLE('',(#373));
#317=EDGE_CURVE('',#358,#374,#375,.T.);
#318=EDGE_CURVE('',#361,#358,#376,.T.);
#319=EDGE_CURVE('',#377,#361,#378,.T.);
#320=EDGE_CURVE('',#374,#377,#379,.T.);
#321=FILL_AREA_STYLE('',(#380));
#322=EDGE_CURVE('',#381,#346,#382,.T.);
#323=EDGE_CURVE('',#383,#381,#384,.T.);
#324=EDGE_CURVE('',#352,#383,#385,.T.);
#325=EDGE_CURVE('',#352,#346,#386,.T.);
#326=FILL_AREA_STYLE('',(#387));
#327=EDGE_CURVE('',#345,#388,#389,.T.);
#328=EDGE_CURVE('',#345,#350,#390,.T.);
#329=EDGE_CURVE('',#391,#350,#392,.T.);
#330=EDGE_CURVE('',#388,#391,#393,.T.);
#331=FILL_AREA_STYLE('',(#394));
#332=EDGE_CURVE('',#391,#388,#395,.T.);
#333=FILL_AREA_STYLE('',(#396));
#334=EDGE_CURVE('',#381,#383,#397,.T.);
#335=FILL_AREA_STYLE('',(#398));
#336=FILL_AREA_STYLE('',(#399));
#337=EDGE_CURVE('',#377,#374,#400,.T.);
#338=FILL_AREA_STYLE('',(#401));
#339=FILL_AREA_STYLE('',(#402));
#340=EDGE_CURVE('',#367,#369,#403,.T.);
#341=FILL_AREA_STYLE('',(#404));
#342=FILL_AREA_STYLE('',(#405));
#343=FILL_AREA_STYLE('',(#406));
#344=FILL_AREA_STYLE_COLOUR('',#407);
#345=VERTEX_POINT('',#408);
#346=VERTEX_POINT('',#409);
#347=CIRCLE('',#410,954.5);
#348=VERTEX_POINT('',#411);
#349=CIRCLE('',#412,204.5);
#350=VERTEX_POINT('',#413);
#351=CIRCLE('',#414,204.5);
#352=VERTEX_POINT('',#415);
#353=CIRCLE('',#416,545.5);
#354=VERTEX_POINT('',#417);
#355=CIRCLE('',#418,204.5);
#356=CIRCLE('',#419,204.5);
#357=FILL_AREA_STYLE_COLOUR('',#420);
#358=VERTEX_POINT('',#421);
#359=VERTEX_POINT('',#422);
#360=CIRCLE('',#423,1000.0);
#361=VERTEX_POINT('',#424);
#362=CIRCLE('',#425,250.0);
#363=VERTEX_POINT('',#426);
#364=CIRCLE('',#427,500.0);
#365=CIRCLE('',#428,250.0);
#366=FILL_AREA_STYLE_COLOUR('',#429);
#367=VERTEX_POINT('',#430);
#368=LINE('',#431,#432);
#369=VERTEX_POINT('',#433);
#370=CIRCLE('',#434,250.0);
#371=LINE('',#435,#436);
#372=CIRCLE('',#437,250.0);
#373=FILL_AREA_STYLE_COLOUR('',#438);
#374=VERTEX_POINT('',#439);
#375=LINE('',#440,#441);
#376=CIRCLE('',#442,250.0);
#377=VERTEX_POINT('',#443);
#378=LINE('',#444,#445);
#379=CIRCLE('',#446,250.0);
#380=FILL_AREA_STYLE_COLOUR('',#447);
#381=VERTEX_POINT('',#448);
#382=LINE('',#449,#450);
#383=VERTEX_POINT('',#451);
#384=CIRCLE('',#452,204.5);
#385=LINE('',#453,#454);
#386=CIRCLE('',#455,204.5);
#387=FILL_AREA_STYLE_COLOUR('',#456);
#388=VERTEX_POINT('',#457);
#389=LINE('',#458,#459);
#390=CIRCLE('',#460,204.5);
#391=VERTEX_POINT('',#461);
#392=LINE('',#462,#463);
#393=CIRCLE('',#464,204.5);
#394=FILL_AREA_STYLE_COLOUR('',#465);
#395=CIRCLE('',#466,204.5);
#396=FILL_AREA_STYLE_COLOUR('',#467);
#397=CIRCLE('',#468,204.5);
#398=FILL_AREA_STYLE_COLOUR('',#469);
#399=FILL_AREA_STYLE_COLOUR('',#470);
#400=CIRCLE('',#471,250.0);
#401=FILL_AREA_STYLE_COLOUR('',#472);
#402=FILL_AREA_STYLE_COLOUR('',#473);
#403=CIRCLE('',#474,250.0);
#404=FILL_AREA_STYLE_COLOUR('',#475);
#405=FILL_AREA_STYLE_COLOUR('',#476);
#406=FILL_AREA_STYLE_COLOUR('',#477);
#407=COLOUR_RGB('',0.24705882370472,0.24705882370472,0.24705882370472);
#408=CARTESIAN_POINT('',(-272.750000007122,-2.50431999354823E-014,-393.608546024159));
#409=CARTESIAN_POINT('',(204.5,-2.50431999356676E-014,433.0127018922));
#410=AXIS2_PLACEMENT_3D('',#478,#479,#480);
#411=CARTESIAN_POINT('',(-375.000000004295,-204.5,-216.506350950357));
#412=AXIS2_PLACEMENT_3D('',#481,#482,#483);
#413=CARTESIAN_POINT('',(-477.25000000407,2.5043199935853E-014,-39.4041558745612));
#414=AXIS2_PLACEMENT_3D('',#484,#485,#486);
#415=CARTESIAN_POINT('',(-204.5,2.50431999356676E-014,433.0127018922));
#416=AXIS2_PLACEMENT_3D('',#487,#488,#489);
#417=CARTESIAN_POINT('',(1.25215999678338E-014,-204.5,433.0127018922));
#418=AXIS2_PLACEMENT_3D('',#490,#491,#492);
#419=AXIS2_PLACEMENT_3D('',#493,#494,#495);
#420=COLOUR_RGB('',0.24705882370472,0.24705882370472,0.24705882370472);
#421=CARTESIAN_POINT('',(250.0,0.0,433.0127018922));
#422=CARTESIAN_POINT('',(-250.000000007461,-3.06151588453741E-014,-433.012701896547));
#423=AXIS2_PLACEMENT_3D('',#496,#497,#498);
#424=CARTESIAN_POINT('',(-250.0,3.06151588455594E-014,433.0127018922));
#425=AXIS2_PLACEMENT_3D('',#499,#500,#501);
#426=CARTESIAN_POINT('',(-500.000000003731,9.88689004921605E-014,-2.17318074646755E-009));
#427=AXIS2_PLACEMENT_3D('',#502,#503,#504);
#428=AXIS2_PLACEMENT_3D('',#505,#506,#507);
#429=COLOUR_RGB('',0.24705882370472,0.24705882370472,0.24705882370472);
#430=CARTESIAN_POINT('',(-420.596004385884,0.0,-531.506350947082));
#431=CARTESIAN_POINT('',(-335.298002193395,-3.06151588455594E-014,-482.259526420795));
#432=VECTOR('',#508,1.0);
#433=CARTESIAN_POINT('',(-670.596004382516,3.06151588455594E-014,-98.4936490529181));
#434=AXIS2_PLACEMENT_3D('',#509,#510,#511);
#435=CARTESIAN_POINT('',(-585.298002190026,3.06151588455594E-014,-49.2468245266316));
#436=VECTOR('',#512,1.0);
#437=AXIS2_PLACEMENT_3D('',#513,#514,#515);
#438=COLOUR_RGB('',0.24705882370472,0.24705882370472,0.24705882370472);
#439=CARTESIAN_POINT('',(250.0,0.0,630.0));
#440=CARTESIAN_POINT('',(250.0,-3.06151588455594E-014,531.5063509461));
#441=VECTOR('',#516,1.0);
#442=AXIS2_PLACEMENT_3D('',#517,#518,#519);
#443=CARTESIAN_POINT('',(-250.0,3.06151588455594E-014,630.0));
#444=CARTESIAN_POINT('',(-250.0,3.06151588455594E-014,531.5063509461));
#445=VECTOR('',#520,1.0);
#446=AXIS2_PLACEMENT_3D('',#521,#522,#523);
#447=COLOUR_RGB('',0.24705882370472,0.24705882370472,0.24705882370472);
#448=CARTESIAN_POINT('',(204.5,0.0,630.0));
#449=CARTESIAN_POINT('',(204.5,-2.50431999356676E-014,531.5063509461));
#450=VECTOR('',#524,1.0);
#451=CARTESIAN_POINT('',(-204.5,2.50431999356676E-014,630.0));
#452=AXIS2_PLACEMENT_3D('',#525,#526,#527);
#453=CARTESIAN_POINT('',(-204.5,2.50431999356676E-014,531.5063509461));
#454=VECTOR('',#528,1.0);
#455=AXIS2_PLACEMENT_3D('',#529,#530,#531);
#456=COLOUR_RGB('',0.24705882370472,0.24705882370472,0.24705882370472);
#457=CARTESIAN_POINT('',(-443.346004385578,0.0,-492.102195074713));
#458=CARTESIAN_POINT('',(-358.048002193088,-2.50431999356676E-014,-442.855370548426));
#459=VECTOR('',#532,1.0);
#460=AXIS2_PLACEMENT_3D('',#533,#534,#535);
#461=CARTESIAN_POINT('',(-647.846004382822,2.50431999356676E-014,-137.897804925287));
#462=CARTESIAN_POINT('',(-562.548002190333,2.50431999356676E-014,-88.6509803990005));
#463=VECTOR('',#536,1.0);
#464=AXIS2_PLACEMENT_3D('',#537,#538,#539);
#465=COLOUR_RGB('',0.24705882370472,0.24705882370472,0.24705882370472);
#466=AXIS2_PLACEMENT_3D('',#540,#541,#542);
#467=COLOUR_RGB('',0.24705882370472,0.24705882370472,0.24705882370472);
#468=AXIS2_PLACEMENT_3D('',#543,#544,#545);
#469=COLOUR_RGB('',0.24705882370472,0.24705882370472,0.24705882370472);
#470=COLOUR_RGB('',0.24705882370472,0.24705882370472,0.24705882370472);
#471=AXIS2_PLACEMENT_3D('',#546,#547,#548);
#472=COLOUR_RGB('',0.24705882370472,0.24705882370472,0.24705882370472);
#473=COLOUR_RGB('',0.24705882370472,0.24705882370472,0.24705882370472);
#474=AXIS2_PLACEMENT_3D('',#549,#550,#551);
#475=COLOUR_RGB('',0.24705882370472,0.24705882370472,0.24705882370472);
#476=COLOUR_RGB('',0.24705882370472,0.24705882370472,0.24705882370472);
#477=COLOUR_RGB('',0.24705882370472,0.24705882370472,0.24705882370472);
#478=CARTESIAN_POINT('',(-750.0,1.2370635778027E-013,433.0127018922));
#479=DIRECTION('',(0.0,-1.0,0.0));
#480=DIRECTION('',(0.0,0.0,1.0));
#481=CARTESIAN_POINT('',(-375.000000005596,9.8663157844602E-014,-216.50635094936));
#482=DIRECTION('',(0.866025403788746,0.0,0.499999999992539));
#483=DIRECTION('',(0.499999999992539,0.0,-0.866025403788746));
#484=CARTESIAN_POINT('',(-375.000000005596,9.8663157844602E-014,-216.50635094936));
#485=DIRECTION('',(0.866025403788746,0.0,0.499999999992539));
#486=DIRECTION('',(0.499999999992539,0.0,-0.866025403788746));
#487=CARTESIAN_POINT('',(-750.0,1.2370635778027E-013,433.0127018922));
#488=DIRECTION('',(0.0,1.0,0.0));
#489=DIRECTION('',(0.0,0.0,1.0));
#490=CARTESIAN_POINT('',(0.0,9.8663157844602E-014,433.0127018922));
#491=DIRECTION('',(0.0,0.0,-1.0));
#492=DIRECTION('',(1.0,0.0,0.0));
#493=CARTESIAN_POINT('',(0.0,9.8663157844602E-014,433.0127018922));
#494=DIRECTION('',(0.0,0.0,-1.0));
#495=DIRECTION('',(1.0,0.0,0.0));
#496=CARTESIAN_POINT('',(-750.0,9.53426076122352E-014,433.0127018922));
#497=DIRECTION('',(0.0,1.0,0.0));
#498=DIRECTION('',(0.0,0.0,1.0));
#499=CARTESIAN_POINT('',(0.0,6.47274487666758E-014,433.0127018922));
#500=DIRECTION('',(0.0,0.0,-1.0));
#501=DIRECTION('',(1.0,-2.58909795066703E-016,0.0));
#502=CARTESIAN_POINT('',(-750.0,9.53426076122352E-014,433.0127018922));
#503=DIRECTION('',(0.0,-1.0,0.0));
#504=DIRECTION('',(0.0,0.0,1.0));
#505=CARTESIAN_POINT('',(-375.000000005596,6.47274487666758E-014,-216.50635094936));
#506=DIRECTION('',(0.866025403788747,0.0,0.499999999992539));
#507=DIRECTION('',(0.499999999992539,-2.58909795066703E-016,-0.866025403788746));
#508=DIRECTION('',(0.866025403788328,0.0,0.499999999993264));
#509=CARTESIAN_POINT('',(-545.5960043842,0.0,-315.0));
#510=DIRECTION('',(-0.866025403788328,0.0,-0.499999999993264));
#511=DIRECTION('',(0.499999999993264,0.0,-0.866025403788328));
#512=DIRECTION('',(-0.866025403788328,-0.0,-0.499999999993264));
#513=CARTESIAN_POINT('',(-375.000000005596,6.47274487666758E-014,-216.50635094936));
#514=DIRECTION('',(0.866025403788747,0.0,0.499999999992539));
#515=DIRECTION('',(0.499999999992539,-2.58909795066703E-016,-0.866025403788746));
#516=DIRECTION('',(0.0,0.0,1.0));
#517=CARTESIAN_POINT('',(0.0,6.47274487666758E-014,433.0127018922));
#518=DIRECTION('',(0.0,0.0,-1.0));
#519=DIRECTION('',(1.0,-2.58909795066703E-016,0.0));
#520=DIRECTION('',(-0.0,-0.0,-1.0));
#521=CARTESIAN_POINT('',(0.0,0.0,630.0));
#522=DIRECTION('',(0.0,0.0,1.0));
#523=DIRECTION('',(1.0,0.0,0.0));
#524=DIRECTION('',(-0.0,0.0,-1.0));
#525=CARTESIAN_POINT('',(0.0,0.0,630.0));
#526=DIRECTION('',(0.0,0.0,-1.0));
#527=DIRECTION('',(1.0,0.0,0.0));
#528=DIRECTION('',(-0.0,0.0,1.0));
#529=CARTESIAN_POINT('',(0.0,9.8663157844602E-014,433.0127018922));
#530=DIRECTION('',(0.0,0.0,-1.0));
#531=DIRECTION('',(1.0,0.0,0.0));
#532=DIRECTION('',(-0.866025403788328,0.0,-0.499999999993264));
#533=CARTESIAN_POINT('',(-375.000000005596,9.8663157844602E-014,-216.50635094936));
#534=DIRECTION('',(0.866025403788746,0.0,0.499999999992539));
#535=DIRECTION('',(0.499999999992539,0.0,-0.866025403788746));
#536=DIRECTION('',(0.866025403788328,0.0,0.499999999993264));
#537=CARTESIAN_POINT('',(-545.5960043842,0.0,-315.0));
#538=DIRECTION('',(0.866025403788328,-0.0,0.499999999993264));
#539=DIRECTION('',(0.499999999993264,0.0,-0.866025403788328));
#540=CARTESIAN_POINT('',(-545.5960043842,0.0,-315.0));
#541=DIRECTION('',(0.866025403788328,-0.0,0.499999999993264));
#542=DIRECTION('',(0.499999999993264,0.0,-0.866025403788328));
#543=CARTESIAN_POINT('',(0.0,0.0,630.0));
#544=DIRECTION('',(0.0,0.0,-1.0));
#545=DIRECTION('',(1.0,0.0,0.0));
#546=CARTESIAN_POINT('',(0.0,0.0,630.0));
#547=DIRECTION('',(0.0,0.0,1.0));
#548=DIRECTION('',(1.0,0.0,0.0));
#549=CARTESIAN_POINT('',(-545.5960043842,0.0,-315.0));
#550=DIRECTION('',(-0.866025403788328,0.0,-0.499999999993264));
#551=DIRECTION('',(0.499999999993264,0.0,-0.866025403788328));
ENDSEC;
END-ISO-10303-21;
